Moğollar – Selvi Boylum Al Yazmalım Ukulele Notaları


Selvi Boylum Al Yazmalım ukulele notaları ve ukulele tab gösterimi karşınızda. Selvi Boylum Al Yazmalım notaları standart ukulele akordunda 4 tel şekinde gösterilmiştir. Teller aşağıdan yukarı doğru sıralanmaktadır. Tellerin içinde gördüğünüz rakamlar, o telde hangi perdeye basacağınızı ifade eder. Selvi Boylum Al Yazmalım ukulele notalarını mobil cihazınızdan okuyorsanız ve notalar ekranınızdan taşıyorsa, cihazını yan yatırarak tüm satırı görüntüleyebilirsiniz.
A |-------3--2--3---0-------|---0-----0---------------|
E |-------------------------|------1------3--3--------|
C |---2---------------------|-------------------------|
G |-------------------------|-------------------------|

A |-------0-------------------------------------------|
E |---3-------3----0----1--1--0---1--3----0-----------|
C |-------------------------------------------2--2----|
G |---------------------------------------------------|

A |-------3--2--3---0-------|---0-----0---------------|
E |-------------------------|------1------3--3--------|
C |-------------------------|-------------------------|
G |-------------------------|-------------------------|

A |-------0-------------------------------------------|
E |---3-------3----0----1--1--0---1--3----0-----------|
C |-------------------------------------------2-------|
G |---------------------------------------------------|

A |----------------0--------|-------------------------|
E |---0-1-3---3-1----3--3---|---0---1-1--0--1-3-0-----|
C |-------------------------|----------------------2--|
G |-------------------------|-------------------------|

A |-------------------------|--------------0----------|
E |------1-1--0-1-3---0-----|-----------------3-------|
C |---0------------------2--|---2--2--2-2-------------|
G |-------------------------|-------------------------|


A |----------------0--------|-------------------------|
E |---0-1-3---3-1----3--3---|---0---1-1--0--1-3-0-----|
C |-------------------------|----------------------2--|
G |-------------------------|-------------------------|

A |-------------------------|-------------------------|
E |------1-1--0-1-3---0-----|-------------------------|
C |---0------------------2--|---2--2--2-2---2--2------|
G |-------------------------|-------------------------|
 
Linki Kopyala & Paylaş:

Sırada Ne Var?
Sitedeki diğer ukulele nota gösterimlerine ulaş. Ya da senin için seçtiğimiz şarkılardan birisine geç↓

Yorum yapın