Ahmet Kaya – Kum Gibi Ukulele Notaları


Kum Gibi ukulele notaları ve ukulele tab gösterimi karşınızda. Kum Gibi notaları standart ukulele akordunda 4 tel şekinde gösterilmiştir. Teller aşağıdan yukarı doğru sıralanmaktadır. Tellerin içinde gördüğünüz rakamlar, o telde hangi perdeye basacağınızı ifade eder. Kum Gibi ukulele notalarını mobil cihazınızdan okuyorsanız ve notalar ekranınızdan taşıyorsa, cihazını yan yatırarak tüm satırı görüntüleyebilirsiniz.
A |-----------------------|-------------------------|
E |---3--3--3--3----5-6---|---6--5--3--5--3--2--2---|
C |-----------------------|-------------------------|
G |-----------------------|-------------------------|

A |-----------------------|----1--------------------|
E |---5---3-2---5---3-2---|---------5----3--2-------|
C |-----------------------|---------------------3---|
G |-----------------------|-------------------------|

A |-----------------------|-------------------------|
E |----------------2--3---|---3--2--3--2------------|
C |---3--3--3--3----------|-----------------3-------|
G |-----------------------|-------------------------|

A |-----------------------|---0---------------------|
E |---3--2------3--2------|------3--2---------------|
C |---------3---------3---|------------3--2---------|
G |-----------------------|-------------------------|
Linki Kopyala & Paylaş:

Sırada Ne Var?
Sitedeki diğer ukulele nota gösterimlerine ulaş. Ya da senin için seçtiğimiz şarkılardan birisine geç↓

Yorum yapın