Kırmızı Balık Ukulele Notaları


Kırmızı Balık ukulele notaları ve ukulele tab gösterimi karşınızda. Kırmızı Balık notaları standart ukulele akordunda 4 tel şekinde gösterilmiştir. Teller aşağıdan yukarı doğru sıralanmaktadır. Tellerin içinde gördüğünüz rakamlar, o telde hangi perdeye basacağınızı ifade eder. Kırmızı Balık ukulele notalarını mobil cihazınızdan okuyorsanız ve notalar ekranınızdan taşıyorsa, cihazını yan yatırarak tüm satırı görüntüleyebilirsiniz.
A |--------------------0------|-----------------------0-0------|
E |---1---1--3--1--3-------3--|---1---1--3--1---1--3--------3--|
C |---------------------------|--------------------------------|
G |---------------------------|--------------------------------|
      Kır-mı-zı ba-lık göl-de,    kıv-rı-la kıv-rı-la yü-zü-yor.

A |--------------------0--0------|-----------------0-0---------|
E |---1--1---3--1--3---------3---|---1--3--1--3---------3------|
C |------------------------------|-----------------------------|
G |------------------------------|-----------------------------|
      Ba-lık-çı ha-san ge-li-yor,    ol-ta-sı-nı   a-tı-yor.

A |--------------------0------|----------------0---------------|
E |---1---1--3--1--3-------3--|---1---3--1--3-----3------------|
C |---------------------------|--------------------------------|
G |---------------------------|--------------------------------|
      Kır-mı-zı ba-lık din-le,    sak-ın ye-mi ye-me.

A |--------------------0-0------|-----------------0-0----------|
E |---1--1---3--1--3--------3---|---1--3--1--3---------3-------|
C |-----------------------------|------------------------------|
G |-----------------------------|------------------------------|
      Ba-lık-çı se-ni tu-ta-cak,    se-pe-ti-ne   a-ta-cak

A |--------------------0-------|--------------------0----------|
E |---1---1--3--1--3-------3---|---1---1--3--1--3-------3------|
C |----------------------------|-------------------------------|
G |----------------------------|-------------------------------|
      Kır-mı-zı ba-lık kaç-kaç,    kır-mı-zı ba-lık kaç-kaç.


A |--------------------0-------|--------------------0----------|
E |---1---1--3--1--3-------3---|---1---1--3--1--3-------3---1--|
C |----------------------------|-------------------------------|
G |----------------------------|-------------------------------|
      Kır-mı-zı ba-lık kaç-kaç,    kır-mı-zı ba-lık kaç-kaç-kaç.
Linki Kopyala & Paylaş:

Sırada Ne Var?
Sitedeki diğer ukulele nota gösterimlerine ulaş. Ya da senin için seçtiğimiz şarkılardan birisine geç↓

Yorum yapın