Nilüfer – Caddelerde Rüzgâr Ukulele Notaları


Caddelerde Rüzgâr ukulele notaları ve ukulele tab gösterimi karşınızda. Caddelerde Rüzgâr notaları standart ukulele akordunda 4 tel şekinde gösterilmiştir. Teller aşağıdan yukarı doğru sıralanmaktadır. Tellerin içinde gördüğünüz rakamlar, o telde hangi perdeye basacağınızı ifade eder. Caddelerde Rüzgâr ukulele notalarını mobil cihazınızdan okuyorsanız ve notalar ekranınızdan taşıyorsa, cihazını yan yatırarak tüm satırı görüntüleyebilirsiniz.
A |---3---3--3---3--4---3---|---3--3---3--8---3----------|
E |-------------------------|----------------------------|
C |-------------------------|----------------------------|
G |-------------------------|----------------------------|
      Cad-de-ler-de rüz-gâr,    ak-lım-da aşk var.

A |---1--1--1--1--3---1-----|---1--1--1---3---1----------|
E |-------------------------|----------------------------|
C |-------------------------|----------------------------|
G |-------------------------|----------------------------|
      Ge-ce ya-rı-sın-da,       es-ki yağ-mur-lar

A |----------------1----------|--------------1-----------|
E |--4---4--4---4------4------|---4---4---4------4-------|
C |---------------------------|--------------------------|
G |---------------------------|--------------------------|
     Şar-kı söy-lü-yor-lar,       ses-siz u--sul-ca


A |-----------------------------|------------------------|
E |---3--3--3--3---4---3-----|---3---3-4---3---1---------|
C |--------------------------|---------------------------|
G |--------------------------|---------------------------|
      Öz-le-di-ğim şim-di,       çok u-zak-lar-da

Üstteki tabları baştan tekrar ederek ikinci kıtayı çalabilirsiniz:
Deli dolu günler, hayat güzeldi.
Kahkahalarıyla, günler geçerdi.
Ellerim uzanmaz, dokunamam ki.
Özlediğim şimdi, çok uzaklarda.

A |--------------8----------|--------------8--6-4--------|
E |---6-6--6--6------8------|---6--6---6-----------------|
C |-------------------------|----------------------------|
G |-------------------------|----------------------------|
      O da öz-lü-yor-muş,       be-nim bir-ta-nem

A |---3---3-3--4---3------|-------------1----------------|
E |-----------------------|---4---4--4------4------------|
C |-----------------------|------------------------------|
G |-----------------------|------------------------------|
      Çok ü-şü-yor-muş,       ben ol-ma-yın-ca

A |---------------3------|---3---1-----------------------|
E |---3--3--3--3---------|-----------4--3---1------------|
C |----------------------|-------------------------------|
G |----------------------|-------------------------------|
      Öy-le ya-zı-yor,       son mek-tu-bun-da
Linki Kopyala & Paylaş:

Sırada Ne Var?
Sitedeki diğer ukulele nota gösterimlerine ulaş. Ya da senin için seçtiğimiz şarkılardan birisine geç↓

Yorum yapın