Barış Manço – Arkadaşım Eşşek Ukulele Notaları

Barış Manço - Arkadaşım Eşşek ukulele akorları ve ritimleri bu yazıda sizi bekliyor. 1989 yayınlanan İşte Barış İşte Manço albümünde yer alan bu Barış Manço şarkısının hemen çalmaya başlayın.
Tür: Çocuk
Albüm: İşte Barış İşte Manço
Çıkış Yılı: 1989
Nasıl Çalınır Videoları: YouTube kanalına göz atın.


Birinci Kısım:
A|--0-0--7-7--8-8--7--|--5-5--8-8-7--|
E|--------------------|--------------|
C|--------------------|--------------|
G|--------------------|--------------|

A|--5-5--8-8--7-5--3--|-2-2--3--2-0--x2
E|--------------------|--------------x2
C|--------------------|--------------x2
G|--------------------|--------------x2

A|--12-12--10-10--8-8--7--|--5-5--8-8--7-|
E|------------------------|--------------|
C|------------------------|--------------|
G|------------------------|--------------|

A|--5-5--8-8--7-5--3--|-2-2--3--2-0--x2
E|--------------------|--------------x2
C|--------------------|--------------x2
G|--------------------|--------------x2

A|-------7-7--8-8--7--|--5-5--8-8-7--|--5-5--8-8--7-5-----|--------------x2
E|--5-5---------------|--------------|-----------------8--|-7-7--8--7-5--x2
C|--------------------|--------------|--------------------|--------------x2
G|--------------------|--------------|--------------------|--------------x2
Kaç yıl oldu saymadım köyden göçeli
Mevsimler geldi geçti görüşmeyeli
Hiç haber göndermedin o günden beri
Yoksa bana küstün mü unuttun mu beni

İkinci Kısım:
A|--12-12--10-10--8-8--7--|--5-5--8-8--7-|--5-5--8-8--7-5-----|--------------x2
E|------------------------|--------------|-----------------8--|-7-7--8--7-5--x2
C|------------------------|--------------|--------------------|--------------x2
G|------------------------|--------------|--------------------|--------------x2
Dün yine seni andım gözlerim doldu
O tatlı günlerimiz bir anı oldu
Ayrılık geldi başa katlanmak gerek
Seni çok çok özledim arkadaşım eşek

Nakarat:
A|---------------|---------------|------------------x2
E|--5--7-8--5----|--5--7--8--5---|--5--7--8--5---5--x2
A|-------------7-|-------------7-|-------------7----x2
G|---------------|---------------|------------------x2
Arkadaşım eş arkadaşım şek arkadaşım eşek


A|-------7-7--8-8--7--|--5-5--8-8-7--|--5-5--8-8--7-5-----|--------------x2
E|--5-5---------------|--------------|-----------------8--|-7-7--8--7-5--x2
A|--------------------|--------------|--------------------|--------------x2
G|--------------------|--------------|--------------------|--------------x2
Yaban tayları çayırda tepişiyor mu
Çilli horoz kedilerle dövüşüyor mu
Sarıkız minik buzağıyı sütten kesti mi
Kuzularla oğlaklar sevişiyor mu

A|------------------------|--------------|--5-5--8-8--7-5-----|--------------x2
E|--12-12--10-10--8-8--7--|--5-5--8-8--7-|-----------------8--|-7-7--8--7-5--x2
A|------------------------|--------------|--------------------|--------------x2
G|------------------------|--------------|--------------------|--------------x2
Uzun kulaklarını son bir kez salla
Tüm eski dostlarımdan bir haber yolla
Ayrılık geldi başa katlanmak gerek
Seni çok çok özledim arkadaşım eşek 
Arkadaşım eş arkadaşım şek arkadaşım eşek


Elinize sağlık. Arkadaşım Eşşek akorları ya da ritimlerinde bir hata olduğunu düşünüyorsanız ya da farklı bir öneriniz olursa, yorum alanını kullanarak bize ulaşın.
Hazır ukuleleniz elinizdeyken, sizin için seçtiğimiz üç şarkıdan birisiyle ukulele çalmaya devam edebilirsiniz. Aradığınız lezzeti bu üç şarkıda bulamadıysanız şarkılar sayfasını ziyaret ederek, menüden dilediğiniz şarkıyı seçebilirsiniz.
Son Eklenen Şarkılar
Not: Arkadaşım Eşşek şarkısı ve ukuleleturkiye.com'da yayınlanan diğer tüm şarkı akorları, eğitim amacıyla paylaşılmaktadır. Ukulele Türkiye, sitede yayınlanan hiçbir şarkının, şarkı sözünün veya düzenlemenin hak sahibi değildir. Bu şarkının hak sahibiyseniz ve bu içeriğin yayından kalkmasını talep ediyorsanız bizimle iletişime geçin.
Yorumlara Abone Ol
Bildir
guest
Adınızı bu alana yazın.
Yorumunuza yanıt geldiğinde e-posta alacaksınız.
0 Yorum
Inline Feedbacks
Tüm yorumları gör